Letras con acordes

> # A B C D E F G H I J K L M N Ñ O P Q R S T U V W X Y Z

Zero Balas

Abismo

[Riff]

|-----------------------------------------------------|
|----88-66-55-66-55-6-5----88-66-55-66-55-6-5---------|
|-55--------------------44----------------------------|
|-----------------------------------------------------|
|-----------------------------------------------------|
|-----------------------------------------------------|

|-----------------------------------------------------|
|----88-66-55-66-55-6-5------66-55-33-66-33-6-3-1-----|
|-22----------------------44--------------------------|
|-----------------------------------------------------|
|-----------------------------------------------------|
|-----------------------------------------------------|

[Verso]

C5
Su mundo avanza rapido
G5
Mientras tu estas mirandote
F5
Mientras sigues pensando
G5
Como le puedes caer bien
C5
De pronto no eres el mejor
G5
Cambias tu forma de actuar
F5
Pues ella es tan especial
G5                    F5      G5
Que hasta tu dignidad se vaaa se vaaa

[Coro]

C5    G5               F5
wohhhhoh y es la inseguridad
              G5
y el miedo a fracasar
C5    G5               F5
wohhhhoh y es tu inseguridad
             G5
la que te va llevar al abismo

[Riff]

|-----------------------------------------------------|
|----88-66-55-66-55-6-5----88-66-55-66-55-6-5---------|
|-55--------------------44----------------------------|
|-----------------------------------------------------|
|-----------------------------------------------------|
|-----------------------------------------------------|

|-----------------------------------------------------|
|----88-66-55-66-55-6-5------66-55-33-66-33-6-3-1-----|
|-22----------------------44--------------------------|
|-----------------------------------------------------|
|-----------------------------------------------------|
|-----------------------------------------------------|

[Verso]

C5
Ella no es tan convencional
G5
Sabes no es como los demas
F5
Ahora te esta obserbando
G5
Y notara tu falsedad
C5
Ella se ira a descepcionar
G5
Mejor empiezate a mostrar
F5
Como es quien eres en verdad
G5                        F5     G5
Para que alguien te pueda amaaar amaaar

[Coro]

C5    G5               F5
wohhhhoh y es la inseguridad
              G5
y el miedo a fracasar
C5    G5               F5
wohhhhoh y es tu inseguridad
             G5
la que te va acabar

[Interdulio] (ezta parte dezpuez la subo)

|-----------------------------------------------------|
|-----------------------------------------------------|
|--5----7----5----7-----------------------------------|
|-----------------------------------------------------|
|----33---33---33---33--------------------------------|
|-----------------------------------------------------|
     ..   ..   ..   ..


Tratas de crear un mundo irreal

Para Evitar tu soledad

Sabiendo que asi te destruiras

Y no encontraras otro final

[Coro]

C5    G5               F5
wohhhhoh y es la inseguridad
              G5
y el miedo a fracasar
C5    G5               F5
wohhhhoh y es tu inseguridad
             G5
la que te va llevar al abismo

[Riff]

|-----------------------------------------------------|
|----88-66-55-66-55-6-5----88-66-55-66-55-6-5---------|
|-55--------------------44----------------------------|
|-----------------------------------------------------|
|-----------------------------------------------------|
|-----------------------------------------------------|

|-----------------------------------------------------|
|----88-66-55-66-55-6-5------66-55-33-66-33-6-3-1-----|
|-22----------------------44--------------------------|
|-----------------------------------------------------|
|-----------------------------------------------------|
|-----------------------------------------------------|

______________________________________________________________________

Letra con acordes de Abismo de Zero Balas, acordes de guitarra de Abismo, bajo, piano... de Zero Balas. Subir una canción