Letras con acordes

> # A B C D E F G H I J K L M N Ñ O P Q R S T U V W X Y Z

Yordano Di Marzo

No voy a mover un dedo

Riff 1
e|---0--1-0--0-1-3-5-------------------------
B|-3----3-3--3-3-3-3-------------------------
G|-2----------------------------------------- 
D|-------------------------------------------
A|-------------------------------------------
E|-------------------------------------------

Riff 2
e|-0-1-3--3-1-0------------------------------
B|-3-3-3--3-3-3------------------------------
G|------------------------------------------- 
D|-------------------------------------------
A|-------------------------------------------
E|-------------------------------------------


Riff 3
e|----0--1-----------------------------------
B|-3--3--3-----------------------------------
G|-2----------------------------------------- 
D|-------------------------------------------
A|-------------------------------------------
E|-------------------------------------------

Riff 4
e|---1---0--1--------------------------------
B|-3---1----3--------------------------------
G|----------2-------------------------------- 
D|-------------------------------------------
A|-------------------------------------------
E|-------------------------------------------

                                 F    C
Los amigos hablan de tu piel morena
                          riff 1
que cuando caminas echa candela 
    F                       C    riff 2
que te compraste un vestido nuevo 
  Dm           A7                 Dm      riff 3
cuando te lo pones tiembla hasta el cielo. 

                               F      C
Las amigas dicen que estas cambiada 
                           riff 1
que se ve tristeza en tu mirada 
     F                      C       Riff 4
que te quedas callada cuando me nombran 
  Dm           A7               Dm
eres solo una sombra y te digo que: 

                        F C
No voy a mover un dedo 
                           Dm      A7
Tu te lo buscaste y te equivocaste
     
y te digo que: 
                       F C
No voy a mover un dedo 
                     
Por tu maldito orgullo
   Dm            A7         Riff 3
yo no quiero nada tuyo, ni tu amor 
                             F        C
Los amigos dicen que estas tan bella 
                             Riff 1
que cuando apareces no hay estrellas 
   F                         C    Riff 2
que te vieron bailando la noche entera 
  Dm           A7            Dm     Riff 3
todos te trataban como una princesa 

                             F        C
Las amigas cuentan que te ves delgada 
                        Riff 1
que a veces lloras por casi nada 
         F                  C   Riff2
que te molestas si no te complacen
   Dm          A7             Dm 
todos tus caprichos y yo digo que: 


                       F C
No voy a mover un dedo 
                           Dm      A7
Tu te lo buscaste y te equivocaste
     
y te digo que: 
                     F  C
No voy a mover un dedo 
                     
Por tu maldito orgullo
   Dm            A7         Riff 4 
yo no quiero nada tuyo, ni tu amor 

                       F  C
No voy a mover un dedo 
                           Dm      A7
Tu te lo buscaste y te equivocaste
     
y te digo que: 
 F                     C
No voy a mover un dedo 
                     
Por tu maldito orgullo
   Dm            A7         Riff 4 
yo no quiero nada tuyo, ni tu amor

Letra con acordes de No voy a mover un dedo de Yordano Di Marzo, acordes de guitarra de No voy a mover un dedo, bajo, piano... de Yordano Di Marzo. Subir una canción