Letras con acordes

> # A B C D E F G H I J K L M N Ñ O P Q R S T U V W X Y Z

Mal de Parkinson

1996

Intro

e|---------------------------------------------|
B|---------------------------------------------|
G|-----------------------------------7-7-9-7---|
D|-------------------7h9-10-10-10-10-----------|
A|--7-7-7-7-10-10-10---------------------------|
E|---------------------------------------------|

E             G
Un cartel de Gancia
C         D
Electrocutaba el mar
E             G
Gente, peces, perros
C            D
Muertos en la popular

E             G
Robos muertes y peleas
C             D
En la calle peatonal
E               G
Mientras viejos ya sin dientes
C           D
En la olla popular


Prostitutas y dragones
Deambulan por el casino
Buscando una ficha
Que le sirva pal camino

LA catedral esta Abierta
Para la gente creyente
Y un cura se coge un pibe
Con un frasco de solventeeeeee

Oho oho

e|-----------------------------------------------------------------
B|--------------------------------------12-13-15-13-15b15r-15-13---
G|------------------------------12-14------------------------------
D|--------14-14b-14r-12---14---------------------------------------
A|-----------------------------------------------------------------
E|-----------------------------------------------------------------

e|-12-12h14-14-14h15-15-15h17-17-17--|
B|-----------------------------------|
G|-----------------------------------|
D|-----------------------------------|
A|-----------------------------------|
E|-----------------------------------|


Ciudad de mediocres
Dijo un delincuente
Hoy no es la misma ciudad
El borracho es intendente

Ciudad de mediocres
Dijo un delincuente
Hoy no es la misma ciudad
El borracho es intendenteeeeeee

Ohoh ohoh

1996
1996
1996
1996
Seis sies

Ohoh ohoh

Final como intro

Letra con acordes de 1996 de Mal de Parkinson, acordes de guitarra de 1996, bajo, piano... de Mal de Parkinson. Subir una canción